Chris Learns Guitar – Week 4

Bit of an odd week, mostly due to the style of video I was following – especially as I was left a little unsure of how some of the riffs went. It was also a lot of fun with the AC/DC and Rage Against the Machine licks.  The video/lesson followed was Campfire Guitar Star’s Super Easy Electric Guitar Songs For Beginners

This week I’ve also switched away from using Reaper and plugins, to playing and recording using the free and a lot of fun ampLion Free. Which I can heartily recommend.

The tabs.

Smoke On The Water

E -0-3-5--0-3-6-5--0-3-5--3-0-

7 Nation Army

A -----3---------
E -5-5---5-3-1-0-

TNT – AC/DC

D --------2---2----
A -2-|----0---0----
E -0-|--3---3---3--

D -2-----------------------------
A -0----2--2-2-2-2-2-2-2-2-2-2-
E ----3-0--0-0-0-0-0-0-0-0-0-0-  

Bullet in the Head

D -----2----4---2---
A -2---0----2---0-2-
E -0-3--------3---0-

I love Rock & Roll

G -----x-------x----2-2--x---4-4-x-----
D -2-2-x---2-2-x----2-2--x---4-4-x-----
A -2-2-x---2-2-x----0-0--x---2-2-x-----
E -0-0-x---0-0-x3--------x-------x3----

Iron Man

D -4---7--7/9-9--12\11-12\11-12\11--7-7/9-9-
A -2---5--5/7-7--10\9--10\9--10\9---5-5/7-7

Bombtrack

G ----------------------------------6-5-4
D ------4----------4-2------4-------6-5-4
A ----------------------------------4-3-2-
E -0-2----0-2-0-2-------0-2---0-2-0-------

Albert King – Born Under A Bad Sign

D -----------------2------------------------
A ---4-------2--4----4---------2----------------
E ------2--4------------2---4------0------------

Pumped up kicks

G |------------------5-8--8-8-5------------------|
D |---------5-6--6-8------------8--8-8-5---------|  
A |--8--8-8------------------------------8-------|
E |----------------------------------------------|

Come as you are

A ---------0---0---------2---2---------------------
E -0-0-1-2---2---2-2-1-0---0------------------------

Leave a Reply

Your email address will not be published. Required fields are marked *